Flema

Cheto puto (acordes y tablaturas)

Flema

LETRA

Alinear a la izquierdaAlinear al centroLetra más grandeLetra más pequeñaVer video

Intro: Re La Re La Re LA/
Do# Re Mi Do#

y arranca!!!

Re La
cheto puto
Re La
cheto puto
Re La
cheto puto

Do# Re Mi Do# Re

Re La
cheto puto
Re La
cheto puto
Re La
cheto puto

Do# Re Mi Do# Re

SOL
cheto puto
La
cheto puto
SOL
cheto puto
La
cheto puto

1er riff
-----------------
-----------------
----2-------2----
--4---4---4---4--
5-------5--------
-----------------

2do riff
-----------------
-----------------
-----------------
----2-------2----
--4---4---4---4--
5-------5--------

y la cancion termina en Re

fuente: musica.com disquito - musica.com

Compartir la letra 'Cheto puto (acordes y tablaturas)'

Buscar canciones
X
Autoplay

Artistas relacionados

Ver video
ir a arriba