QUISIERA CON ACORDES

Colchón

Intro
E B C#m A
|----------------------------------------------------------------------------|
|----------------------------------------------------------------------------|
|---9-----9-----9---9-----9-----9---9-----9-----9---9-----9-----9---|
|-----9-----9---------9-----9-----------9-----9---------9-----9--------|
|-7-----7-----7---0-----0-----0-----------------------------------------|
|-------------------------------------9-----9-----9---7-----7-----7-----|

E B C#m A
Es difícil olvidar los errores del ayer
E B C#m A
un error que ya se fue puede hacer que tu quieras volver.

E B C#m A
|----------------------------------------------------------------------------|
|----------------------------------------------------------------------------|
|---9-----9-----9---9-----9-----9---9-----9-----9---9-----9-----9---|
|-----9-----9---------9-----9-----------9-----9---------9-----9--------|
|-7-----7-----7---0-----0-----0-----------------------------------------|
|-------------------------------------9-----9-----9---7-----7-----7-----|

E B C#m A
quisiera estar juntos otra vez
E B C#m A
quisiera olvidar el pasado que me atormenta esta vez.

E B C#m A
no te extraño quisiera poder el tiempo
E B C#m A
cambiar haaaaaaaaa jaaaa poder el tiempo
E B C#m A
cambiar.
|----------------------------------------------------------------------------|
|----------------------------------------------------------------------------|
|---9-----9-----9---9-----9-----9---9-----9-----9---9-----9-----9---|
|-----9-----9---------9-----9-----------9-----9---------9-----9--------|
|-7-----7-----7---0-----0-----0-----------------------------------------|
|-------------------------------------9-----9-----9---7-----7-----7-----|

E B C#m A
sigo pensando que tu aun te acuerdas de mi
E B C#m A
pero no lo se tal vez no sea así.

E B C#m A
no te extraño quisiera poder el tiempo
E B C#m A
cambiar haaaaaaaaa jaaaa poder el tiempo
E B C#m A
cambiar.

|----------------------------------------------------------------------------|
|----------------------------------------------------------------------------|
|---9-----9-----9---9-----9-----9---9-----9-----9---9-----9-----9---|
|-----9-----9---------9-----9-----------9-----9---------9-----9--------|
|-7-----7-----7---0-----0-----0-----------------------------------------|
|-------------------------------------9-----9-----9---7-----7-----7-----|

------------------------PM--------------------------
E B C#m A

continua Coro...
me falta el solo despues lo tendran....
fuente: musica.com

Ficha de la Canción

Título:
QUISIERA (CON ACORDES)

Grupo/Cantante:
COLCHÓN

Letra añadida por:
supirkelae

Valora la calidad de la letra

Compartir Letra

compartir en facebook
compartir en google plus
compartir en twitter

Enviar la letra 'Quisiera con acordes' por email

Imprimir la letra 'Quisiera con acordes' de Colchón

ir a arriba