División Minúscula

Curci (con acordes)

División Minúscula

LETRA

Curci (con acordes) Letra

*INTRO*
/---------1-1-0-----------1-1-0----------1-1-0------------1-1-0----
/-1-1-1----------1-1-1-----------1-1-1---------3-3-3-1----------3--
/-------3---------------3---------------3----------------3---------
/------------------------------------------------------------------
/------------------------------------------------------------------
/------------------------------------------------------------------

F A# F
Acaso es mucho pedirte una razón
A# Dm
cuando sabes que eres tu
C A#
la que tiene mi corazon.
F A# F
Explicame porque no puedo ni hablar
A# Dm
y me pones a temblar
C A#
cada vez que estás cerca de mi.
Dm C A#
No lo puedo resistir,
C F C A#
mira lo que me haces escribir...

CORO

A# F C A#
Y no se que decir
A# F C A#
y no se que hacer
Dm C A#
para que te puedas dar cuenta de que yo...
C F
estoy frente a ti.

*Intro*

F A# F
Acaso es mucho escribirte esta cancion
A# Dm
Pues para mi no es tan común
C A#
estar en esta situación.
F A# F
Si tan solo no fueras tan especial
A# Dm
y yo no tan informal tal vez
C A#
me acercaría a ti.
Dm C A#
Yo me siento tan cursi,
C F C A#
mira lo que me haces escribir...

CORO

A# F C A#
Y no se que decir
A# F C A#
y no se que hacer
Dm C A#
para que te puedas dar cuenta de que yo...
C F
estoy frente a ti.

SOLO

/--------1-1-0-----------1-1-0----------1-1-0------------1-1-0------
/-1-1-1----------1-1-1-----------1-1-1---------3-3-3-1----------3---
/-------3---------------3---------------3----------------3----------
/-------------------------------------------------------------------
/-------------------------------------------------------------------
/-------------------------------------------------------------------

/----3-1-0-3-----3-1-0-3----------------3-1---------------3--1--5---
/-1-----------1------------1---1-1-1-1-------1---1-1-1-1----------3-
/-------------------------------------------------------------------
/-------------------------------------------------------------------
/-------------------------------------------------------------------
/-------------------------------------------------------------------

A# F C A#
Y no se que decir
A# F C A#
y no se que hacer
Dm C A#
para que te puedas dar cuenta de que yo...

CORO

A# F C A#
Y no se que decir
A# F C A#
y no se que hacer
Dm C A#
para que te puedas dar cuenta de que yo...
C F
estoy frente a ti.