MIRA NIÑITA CON ACORDES

Los Jaivas

INTRO : FA FA .......


FA - DO - SOL X2

FA
Mira niñita, te voy a llevar
DO SOL
A ver la luna brillando en el mar
FA
Mira hacia el cielo y olvida
DO
Ese lánguido temor
SOL
Que fue permanente emoción.....
FA DO SOL
Ay..., fue permanente emoción.
FA
Para la hija de un hombre
DO
Con ojos de cristal
SOL
Y papel sellado en la piel.

FA - DO - SOL X2

FA
Mira niñita, te voy a llevar
DO SOL
A ver la luna brillando en el mar.
FA
Mira hacia el cielo y olvida
DO
Ese lánguido temor
SOL
Que fue permanente emoción.....


FA DO SOL
Ay..., fue permanente emoción.
FA
Para la hija de un hombre
DO
Con ojos de cristal
SOL
Y papel sellado en la piel.

FA - DO - SOL X2


Solo :

e|--10--12--13/15--13-12-----10-10--12--13/15--13-12--10-----|
B|-----------------------------------------------------------|
G|-----------------------------------------------------------|
D|-----------------------------------------------------------|
A|-----------------------------------------------------------|
e|-----------------------------------------------------------|

e|--8-10-12-13-12-10-8---------------------------------------|
B|-----------------------------------------------------------|
G|-----------------------------------------------------------|
D|-----------------------------------------------------------|
A|-----------------------------------------------------------|
e|-----------------------------------------------------------|

e|--10--12--13/15--13-12-----10-10--12--13/15--13-12---------|
B|-----------------------------------------------------------|
G|-----------------------------------------------------------|
D|-----------------------------------------------------------|
A|-----------------------------------------------------------|
e|-----------------------------------------------------------|

e|--8-10-12-13-12-10-8---------------------------------------|
B|-----------------------------------------------------------|
G|-----------------------------------------------------------|
D|-----------------------------------------------------------|
A|-----------------------------------------------------------|
e|-----------------------------------------------------------|

e|-13--13--13-13-13-12~13------------------------------------------|
B|------------------------15-13-13-13-12~13------12-13-12----15-15-|
G|------------------------------------------14------------14-------|
D|-----------------------------------------------------------------|
A|-----------------------------------------------------------------|
e|-----------------------------------------------------------------|


e|-13--13--13-12~13-13-12~13-13-13-12~13------------------------------------------|
B|--------------------------------------15-13-13-13-12~13------12-13-12----15-15--|
G|------------------------------------------------------14------------14----------|
D|--------------------------------------------------------------------------------|
A|--------------------------------------------------------------------------------|
e|--------------------------------------------------------------------------------|

FA - DO - SOL x.....

FA
Mira hacia el cielo y olvida
DO
Ese lánguido temor
SOL
Que fue permanente emoción.....
FA DO SOL
Ay..., fue permanente emoción.

FA DO
Ay, tu pelito y tus ojos de miel
FA DO
Pero ya en tu pecho florecerán
SOL
Colores de amor.
FA DO SOL
Florecerán,
FA
tu pelito....
FA DO SOL
Ay, la ternura tendrás para ti, para ti.
FA DO
Florecerán,
FA DO
tu pelito,
FA DO
Pero ya en tu pecho florecerán
SOL
Colores de amor.......
fuente: musica.com

Los Jaivas

Ficha de la Canción

Título:
MIRA NIÑITA (CON ACORDES)

Grupo/Cantante:
LOS JAIVAS

Letra añadida por:
jotita_bullanguero

Valora la calidad de la letra

Compartir Letra

compartir en facebook
compartir en google plus
compartir en twitter

Enviar la letra 'Mira Niñita con acordes' por email

Imprimir la letra 'Mira Niñita con acordes' de Los Jaivas

ir a arriba