SISMO CON ACORDES

División Minúscula

Letra de la canción

-acordes-( a algunos les puc x y y por q no c como c llaman)

D5 A#5 Y5 A5 C5 X5
0 0 0 0 0 0
0 0 0 0 0 0
7 0 0 0 5 3
7 8 10 7 5 3
5 8 10 7 3 1
0 6 8 5 0 0

|--------------------------------------------|
|-10-10--10-b-12-10------10-10-10--12-12-12--|
|-10-10--10---12-10-X3---10-10-10--12-12-12--|
|--------------------------------------------|
|--------------------------------------------|
|--------------------------------------------|

|-------------------------------------|
|10-105-5---------------------5-5-5---|
|10-105-5---------------------5-5-5---|
|---------7-7--7-5-7-X2--7-7-7--------|
|---------7-7--7-5-7-----7-7-7--------|
|-------------------------------------|

D5 A#5 Y5
Si esto no es un sismo entonces me rindo no se que es
D5 A#5 Y5
Acaso hay guerra allá afuera y yo sigo aquí adentro viendo TV
D5 A#5 Y5
He malgastado mi tiempo, aliento y silencio, para que
D5
si nadie gasta su tiempo, atención y silencio en escucharme

A#5 Y5 A5 A#5
Nada que ver, no hay nada que escuchar
A#5 Y5 A5 A#5
nada sorprende ya en este lugar
A#5 Y5 A5 A#5
ojala fuera tan bueno para aprender
Y5
como tu para olvidar...

D5 A#5 Y5
Si te preguntas que hago plasmo risas y llanto sobre un papel
D5 A#5 Y5
y aunque siempre estoy al mando hoy mi cuerpo infectado me hace ceder
D5 A#5 Y5
Si bebí mas de la cuenta para eso es mi fiesta y a ti que
D5 A#5 Y5
buscas el cliché en el arte, olor a muerte en el aire una y otra vez

A#5 Y5 A5 A#5
Nada que ver, no hay nada que escuchar
A#5 Y5 A5 A#5
nada sorprende ya en este lugar
A#5 Y A A#5
ojala fuera tan bueno para aprender
Y
como tu para olvidar...

D5 C5 X5 C5 A5
No se si fue amor, pero vaya que lo hicimos de lo mejor
X5 C5
y que el mundo se muera de envidia
D5 C5
No se si es rock n roll
X5 C5 A5 X5 C5
Pero no encuentro una excusa mejor mejoooor



|---------------------------------------------------------------------|
|-10-10-105-5-----3-3------3--3-3----3-3------3-3-3----3-3-3---5-5-5--|
|-10-10-105-5-----2-2--0h2p0--0-2----2-2--0h2p0-0-2----2-2-2---5-5-5--|
|---------------------------------------------------------------------|
|---------------------------------------------------------------------|
|---------------------------------------------------------------------|

D5 A#5 Y5
Si esto no es un sismo entonces me rindo no se que es
D A#5 Y5
Si esto no es un sismo entonces me rindo no se que es

A#5 Y5 A5 A#5
Nada que ver, no hay nada que escuchar
A#5 Y5 A5 A#5
nada sorprende ya en este lugar
A#5 Y5 A5 A#5
ojala fuera tan bueno para aprender
Y5
como tu para olvidar...

D5 C5 X5 C5 A5
No se si fue amor, pero vaya que lo hicimos de lo mejor
X5 C5
y que el mundo se muera de envidia
D5 C5
No se si es rock n roll
X5 C5 A5
Pero no encuentro una excusa mejor
fuente: musica.com

Letra añadida por: Sleep or dead yeah!!

División Minúscula

Compartir 'Sismo con acordes'

compartir en facebook
compartir en google plus
compartir en twitter
Enviar letra a un mail
Imprimir letra
ir a arriba