Los Violadores

Uno, dos ultraviolento (con acordes y tablaturas) - Letra

Los Violadores

Añadir a Favoritas

LETRA 'UNO, DOS ULTRAVIOLENTO (CON ACORDES Y TABLATURAS)'

Intro(Himno de la Alegria): con A5

Uno, dos ultraviolento
Uno, dos ultraviolento
Uno, dos ultraviolento
Uno, dos ultraviolento

[D5 G5 A5] Riff

D5 G5 A5
Varias debotchas caminan por ahi (uno dos ultraviolento)
D5 G5 A5
mueven sus scharros con frenesi (uno dos ultraviolento)
D5 G5 A5
los mal chicos de cuero nos queremos divertir (uno dos ultraviolento)
D5 G5 A5
con mis drugos al ataque vamos a ir

[G5 A5]

D5 G5 A5 [Fill #2]
y ahora que pasa, eh?
D5 G5 A5 [Fill #1]
y ahora que pasa, eh?
D5 G5 A5
y ahora que pasa, pasa uno dos ultraviolento

[D5 G5 ] Riff

Sin milicos en la esquina es mas facil para mi (1,2 ultraviolento)
el dremcon en la goloba me hace decidir (1,2 ultraviolento)
la de grudos mas bolches la quiero para mi (1,2 ultraviolento)
crobo rojo entre sus lapas les haremos salir

[G5 A5]

D5 G5 A5 [Fill #1]
y ahora que pasa, eh?
D5 G5 A5 [Fill #2]
y ahora que pasa, eh?
D5 G5 A5
y ahora que pasa, pasa uno dos ultraviolento

G5 A5 D5 G5
Nos quieren transformar, no lo lograran
G5 A5
no, no lo lograran
D5 G5 A5 D5 G5 A5
no, no lo lograran. No no lo lograran
D5 G5 A5
no, no, no, no

***********************************

Referencia: H - hammer-on (ligado)
/ - slide
P - pull-off
^ - half bend
^^ - full bend
~ - vibrato

Intro (Himno de la Alegria)
1-----------------------------------------------
2-----------------------------------------------
3-----------------------------------------------
4-11-11-12-14-14-12-11-------------11-11--------
5----------------------14-12-12-14-------14~~--- [gritan Hey!]
6-----------------------------------------------
(continua)
1-----------------------------------------------
2-----------------------------------------------
3-----------------------------------------------
4-11-11-12-14-14-12-11-------------11-----------
5----------------------14-12-12-14----14-12~~--- [gritan Hey!]
6-----------------------------------------------
(continua) A5
1---------------------------------------------------
2---------------------------------------------------
3---------------------------------------------------
4----11-------11-12-11^------11-12-11^-----------7~-
5-14----12-14----------12-14-----------14-12-14^-7~-
6------------------------------------------------5~-

Riff
1-------------------------------------
2-------------------------------------
3-------------------------------------
4--7-7-5-5-4-4-------------------4----
5--------------7-0----0-4-4-7-7----7^-
6-------------------------------------

Fill #1 (es opcional, aparece en el tema a veces)
1-4/5-5-5^-- [lo hace 2 o 3 veces, al estilo Chuck Berry)
2-4/5-5-5^--
3-----------
4-----------
5-----------
6-----------

Fill #2 (opcional)
1-4H5P4H5P4-- (lo hace 2 o 3 veces, rapido)
2------------
3------------
4------------
5------------
6------------